Stevie Ray Vaughan - Traffic Jam (var.5) Notas de guitarra (tab) descargar gratis o reproducir online

Notas de guitarra (tab) para Traffic Jam (var.5) de Stevie Ray Vaughan descargar gratis, leer o reproducir online. Info de archivo: .txt, 1.53 kb, 56 visualizaciones y 0 descargas.

Descargar notas de guitarra (tab) "Traffic Jam (var.5)" (Stevie Ray Vaughan)

Stevie Ray Vaughan Nombre de grupo
Traffic Jam Nombre de canción
Notas de guitarra (tabs) Tipo de nota
1.53 kb Tamaño de archivo
.TXT Tipo de archivo
56 visualizaciones
0 descargas
 
Eres un robot?

Traffic Jam (var.5) notas de guitarra (tab) leer y reproducir online

                    Traffic Jam - Stevie Ray vaughan
Tabbed by: Kevin Stier
Tuning: Eb

(Notes: This is just the little intro piece, hope you like it, I couldn't see a tab for this
on here, so i gave it a go... If you have any questions or queries, etc, email me.
Keep rockin' in the free world!)

PS: I guess you could improvise this, by giving it lots of
right hand attack and slides and heavy vibrato, and experimenting
with different ways to play it, etc.


e|---------------------------------------------------------------------------|
B|-----------------------------------------------9---------------------------|
G|-------8-------------------8------------8-8-11---11-8-6-8------------------|
D|8-8-11---11-8-6-8---8-8-11---11-8-6-8--------------------------------------|
A|---------------------------------------------------------------------------|
E|---------------------------------------------------------------------------|



e|---------------------------------------------------------------------------|
B|-------9-------------------------------------------------------------------|
G|8-8-11---11-8~---8-8-11---11-8-6-8~~~--------------------------------------|
D|---------------------------------------------------------------------------|
A|---------------------------------------------------------------------------|
E|---------------------------------------------------------------------------|



Key:
/  slide up
\  slide down
h  hammer-on
p  pull-off
~  vibrato
+  harmonic
x  Mute note
===============================================================================                    

Comentarios para notas de guitarra (tab) — Traffic Jam (var.5) (Stevie Ray Vaughan)

Otras notas para Traffic Jam (var.5) de Stevie Ray Vaughan:

Las últimas notas vistas de Stevie Ray Vaughan: