Stevie Ray Vaughan - Wall Of Denial (var.3) Notas de guitarra (tab) descargar gratis o reproducir online

Notas de guitarra (tab) para Wall Of Denial (var.3) de Stevie Ray Vaughan descargar gratis, leer o reproducir online. Info de archivo: .txt, 2.42 kb, 57 visualizaciones y 0 descargas.

Descargar notas de guitarra (tab) "Wall Of Denial (var.3)" (Stevie Ray Vaughan)

Stevie Ray Vaughan Nombre de grupo
Wall Of Denial Nombre de canción
Notas de guitarra (tabs) Tipo de nota
2.42 kb Tamaño de archivo
.TXT Tipo de archivo
57 visualizaciones
0 descargas
 
Eres un robot?

Wall Of Denial (var.3) notas de guitarra (tab) leer y reproducir online

                    Here's the Wall Of Denial intro: 
 
e|-------------------------| 
B|-------------------------| 
G|-------------------------| 
D|-------------------------| 
A|-----5-7-----5-7-----5-7-| 
E|-6/7-----6/7-----6/7-----| 
 
e|----------------------------| 
B|----------------------------| 
G|----------------------------| 
D|------------5h6-------------| 
A|------5-7-------5-7-----5-7-| 
E|0-6-7-----0---------5h7-----| 
 
e|-------------------------| 
B|-------------------------| 
G|-------------------------| 
D|-------------5-7-7b-7-5--| 
A|-------5-7--------------7| 
E|-0-6-7-----0-------------| 
 
e|---------------------------| 
B|---------------------------| 
G|---------------------------| 
D|-------------5h6-----------| 
A|-------5-7-------5-7---5-7-| 
E|-0-6-7-----0---------7-----| 
 
e|---7---7-7---7-7---7--7/9-| 
B|---7---7-7---7-7---7--7/9-| 
G|---7---7-7---7-7---7--7/9-| 
D|---6---6-6---6-6---6------| 
A|---7---7-7---7-7---7------| 
E|-0---0-----0-----0--------| 
 
e|-----6/7-7---7--6/7-7-----6/7---8---8-8-| 
B|-----6/7-7---7--6/7-7-----6/7---8---8-8-| 
G|-----6/7-7---7--6/7-7-----6/7---8---8-8-| 
D|-----5/6-6---6--5/6-6-----5/6---7---7-7-| 
A|-----6/7-7---7--6/7-7-----6/7---8---8-8-| 
E|-0-0-------0--0-------0-0-----0---0-----| 
 
_______________________________________________________ 
Contribuiзгo: Josй Paulo Marchezi(marchezi@via-rs.net) 
"
var fontTamanho = '12px'

function alteraFonte()
{
fontTamanho = (fontTamanho == '12px' ? '16px' : '12px'); 
document.getElementById("spCifra").style.font = fontTamanho
}
function montaEscala(pAcorde){
	window.open('escalas.html?acorde=' + pAcorde,'escala', 'width=650, height=150, toolbars=no, statusbar=no, location=no')
}





.smalltext{font-size: 8pt}
.nota {font-size: 7pt; color:black; background-color:white}
.border {border: 1px solid #3F6A82}
sda {font-family: arial; font-size: 10pt; color: blue}
.b {font-family: arial; font-size: 10pt}
.db {color: darkblue; font-weight:bold; cursor:hand}
pre {font-family:;font-size:10pt;} 



   
     
    
      
  




  
  Stevie Ray Vaughan 
  Wall Of Denial
  










 





 




   
    
         
            
            
            Print 
		  
            
            Send toe-amail


           
		   
		  
            Add toSongbook 

			
           
            


          more Stevie Ray Vaughan, Wall Of Denial tabs at GoogleTabs
        
		

	
		Songbook                    

Comentarios para notas de guitarra (tab) — Wall Of Denial (var.3) (Stevie Ray Vaughan)

Otras notas para Wall Of Denial (var.3) de Stevie Ray Vaughan:

Las últimas notas vistas de Stevie Ray Vaughan: